Tablature


Les Sales Majests - Sois pauvre et tais-toi

Batterie - Guillaume/Mathias
Guillaume/Mathias

Tempo = 150

||-------|-------|-------|-------|-----------------------|
||-------|-------|-------|-------|-----------------------|
||-------|-------|-------|-------|-----------------------|
||-------|-------|-------|-------|---------------40--40--|
||-------|-------|-------|-------|---------------41--41--|
||-------|-------|-------|-------|---------------35--35--|



----------------------------------|----------------------------------|
----------------------------------|----------------------------------|
----------------------------------|----------------------------------|
------40------40------40------40--|------40------40------40------40--|
----------------------------------|----------------------------------|
--35------35------35------35------|--35------35------35------35------|



----------------------------------|--------------------------------------|
----------------------------------|--------------------------------------|
----------------------------------|--------------------------------------|
------40------40------40------40--|------40------40------40--40-40-40-40-|
----------------------------------|--------------------------------------|
--35------35------35------35------|--35------35------35------35----------|



--------------------------------------|--------------------------------------|
--------------------------------------|--------------------------------------|
--------------------------------------|--------------------------------------|
------40------40------40--40-40-40-40-|------40------40------40--40-40-40-40-|
--------------------------------------|--------------------------------------|
--35------35------35------35----------|--35------35------35------35----------|



--------------------------------------|-------------------|
--------------------------------------|-------------------|
--------------------------------------|-------------------|
------40------40------40--40-40-40-40-|--40-40-40-40------|
--------------------------------------|-------------------|
--35------35------35------35----------|-------------------|



--------------------------------------|--------------------------------------|
--46--46--46----46--46--46--46----46--|--46--46--46----46--46--46--46----46--|
--------------------------------------|--------------------------------------|
------40--------40------40--------40--|------40--------40------40--------40--|
--------------------------------------|--------------------------------------|
--35------35-35-----35------35-35-----|--35------35-35-----35------35-35-----|



--------------------------------------|--------------------------------------|
--46--46--46----46--46--46--46----46--|--46--46--46----46--46--46--46----46--|
--------------------------------------|--------------------------------------|
------40--------40------40--------40--|------40--------40------40--------40--|
--------------------------------------|--------------------------------------|
--35------35-35-----35------35-35-----|--35------35-35-----35------35-35-----|



--------------------------------------|--------------------------------------|
--46--46--46----46--46--46--46----46--|--46--46--46----46--46--46--46----46--|
--------------------------------------|--------------------------------------|
------40--------40------40--------40--|------40--------40------40--------40--|
--------------------------------------|--------------------------------------|
--35------35-35-----35------35-35-----|--35------35-35-----35------35-35-----|



--------------------------------------|----------------------------------------|
--46--46--46----46--46--46--46----46--|--46--46--46----46--46--46--------------|
--------------------------------------|----------------------------------------|
------40--------40------40--------40--|------40--------40------40--40-40-40-40-|
--------------------------------------|----------------------------------------|
--35------35-35-----35------35-35-----|--35------35-35-----35------35----------|



--57----------------------------------|----------------------------------------|
--------------------------------------|----------------------------------------|
------51--51----51--51--51--51----51--|--51--51--51----51--51--51--------------|
------40--------40------40--------40--|------40--------40------40--40-40-40-40-|
--------------------------------------|----------------------------------------|
--35------35-35-----35------35-35-----|--35------35-35-----35------35----------|



--------------------------------------|----------------------------------------|
--------------------------------------|----------------------------------------|
--51--51--51----51--51--51--51----51--|--51--51--51----51--51--51--------------|
------40--------40------40--------40--|------40--------40------40--40-40-40-40-|
--------------------------------------|----------------------------------------|
--35------35-35-----35------35-35-----|--35------35-35-----35------35----------|


SSSSSSSSHEESSEEESSE
-----------------------------------|--49----------------------------------|
-----------------------------------|------46--46----46--46--46--46----46--|
-----------------------------------|--------------------------------------|
--40-40-40-40-40-40-40-40----------|------40--------40------40--------40--|
-----------------------------------|--------------------------------------|
--35----------35-------------------|--35------35-35-----35------35-35-----|



--------------------------------------|--------------------------------------|
--46--46--46----46--46--46--46----46--|--46--46--46----46--46--46--46----46--|
--------------------------------------|--------------------------------------|
------40--------40------40--------40--|------40--------40------40--------40--|
--------------------------------------|--------------------------------------|
--35------35-35-----35------35-35-----|--35------35-35-----35------35-35-----|



--------------------------------------|--------------------------------------|
--46--46--46----46--46--46--46----46--|--46--46--46----46--46--46--46----46--|
--------------------------------------|--------------------------------------|
------40--------40------40------------|------40--------40------40--------40--|
----------------------------41----41--|--------------------------------------|
--35------35-35-----35------35-35-----|--35------35-35-----35------35-35-----|



--------------------------------------|--------------------------------------|
--46--46--46----46--46--46--46----46--|--46--46--46----46--46--46--46----46--|
--------------------------------------|--------------------------------------|
------40--------40------40--------40--|------40--------40------40--------40--|
--------------------------------------|--------------------------------------|
--35------35-35-----35------35-35-----|--35------35-35-----35------35-35-----|



----------------------------------------|--57----------------------------------|
--46--46--46----46--46--46--------------|------46--46----46--46--46--46----46--|
----------------------------------------|--------------------------------------|
------40--------40------40--40-40-40-40-|------40--------40------40--------40--|
----------------------------------------|--------------------------------------|
--35------35-35-----35------35----------|--35------35-35-----35------35-35-----|



--------------------------------------|--------------------------------------|
--46--46--46----46--46--46--46----46--|--46--46--46----46--46--46--46----46--|
--------------------------------------|--------------------------------------|
------40--------40------40--------40--|------40--------40------40--------40--|
--------------------------------------|--------------------------------------|
--35------35-35-----35------35-35-----|--35------35-35-----35------35-35-----|



--------------------------------------|--------------------------------------|
--46--46--46----46--46--46--46----46--|--46--46--46----46--46--46--46----46--|
--------------------------------------|--------------------------------------|
------40--------40------40--------40--|------40--------40------40--------40--|
--------------------------------------|--------------------------------------|
--35------35-35-----35------35-35-----|--35------35-35-----35------35-35-----|



--------------------------------------|--------------------------------------|
--46--46--46----46--46--46--46----46--|--46--46--46----46--46--46--46----46--|
--------------------------------------|--------------------------------------|
------40--------40------40--------40--|------40--------40------40--------40--|
--------------------------------------|--------------------------------------|
--35------35-35-----35------35-35-----|--35------35-35-----35------35-35-----|



----------------------------------------|--49----------------------------------|
--46--46--46----46--46--46--------------|--------------------------------------|
----------------------------------------|------51--51----51--51--51--51----51--|
------40--------40------40--40-40-40-40-|------40--------40------40--------40--|
----------------------------------------|--------------------------------------|
--35------35-35-----35------35----------|--35------35-35-----35------35-35-----|



----------------------------------------|--------------------------------------|
----------------------------------------|--------------------------------------|
--51--51--51----51--51--51--------------|--51--51--51----51--51--51--51----51--|
------40--------40------40--40-40-40-40-|------40--------40------40--------40--|
----------------------------------------|--------------------------------------|
--35------35-35-----35------35----------|--35------35-35-----35------35-35-----|



----------------------------------------|-----------------------------------|
----------------------------------------|-----------------------------------|
--51--51--51----51--51--51--------------|-----------------------------------|
------40--------40------40--40-40-40-40-|--40-40-40-40-40-40-40-40----------|
----------------------------------------|-----------------------------------|
--35------35-35-----35------35----------|--35----------35-------------------|



--57----------------------------------|--------------------------------------|
------46--46----46--46--46--46----46--|--46--46--46----46--46--46--46----46--|
--------------------------------------|--------------------------------------|
------40--------40------40--------40--|------40--------40------40--------40--|
--------------------------------------|--------------------------------------|
--35------35-35-----35------35-35-----|--35------35-35-----35------35-35-----|



--------------------------------------|--------------------------------------|
--46--46--46----46--46--46--46----46--|--46--46--46----46--46--46--46----46--|
--------------------------------------|--------------------------------------|
------40--------40------40--------40--|------40--------40------40------------|
--------------------------------------|----------------------------41----41--|
--35------35-35-----35------35-35-----|--35------35-35-----35------35-35-----|



--------------------------------------|--------------------------------------|
--46--46--46----46--46--46--46----46--|--46--46--46----46--46--46--46----46--|
--------------------------------------|--------------------------------------|
------40--------40------40--------40--|------40--------40------40--------40--|
--------------------------------------|--------------------------------------|
--35------35-35-----35------35-35-----|--35------35-35-----35------35-35-----|



--------------------------------------|----------------------------------------|
--46--46--46----46--46--46--46----46--|--46--46--46----46--46--46--------------|
--------------------------------------|----------------------------------------|
------40--------40------40--------40--|------40--------40------40--40-40-40-40-|
--------------------------------------|----------------------------------------|
--35------35-35-----35------35-35-----|--35------35-35-----35------35----------|



--------------------------------------|--------------------------------------|
--46--46--46----46--46--46--46----46--|--46--46--46----46--46--46--46----46--|
--------------------------------------|--------------------------------------|
------40--------40------40--------40--|------40--------40------40------------|
--------------------------------------|----------------------------41----41--|
--35------35-35-----35------35-35-----|--35------35-35-----35------35-35-----|



--------------------------------------|--------------------------------------|
--46--46--46----46--46--46--46----46--|--46--46--46----46--46--46--46----46--|
--------------------------------------|--------------------------------------|
------40--------40------40--------40--|------40--------40------40------------|
--------------------------------------|----------------------------41----41--|
--35------35-35-----35------35-35-----|--35------35-35-----35------35-35-----|



----------------------------------------|--57----------------------------------|
--46--46--46----46--46--46--------------|------46--46----46--46--46--46----46--|
----------------------------------------|--------------------------------------|
------40--------40------40--40-40-40-40-|------40--------40------40--------40--|
----------------------------------------|--------------------------------------|
--35------35-35-----35------35----------|--35------35-35-----35------35-35-----|



--------------------------------------|--------------------------------------|
--46--46--46----46--46--46--46----46--|--46--46--46----46--46--46--46----46--|
--------------------------------------|--------------------------------------|
------40--------40------40--------40--|------40--------40------40--------40--|
--------------------------------------|--------------------------------------|
--35------35-35-----35------35-35-----|--35------35-35-----35------35-35-----|



--------------------------------------|--------------------------------------|
--46--46--46----46--46--46--46----46--|--46--46--46----46--46--46--46----46--|
--------------------------------------|--------------------------------------|
------40--------40------40--------40--|------40--------40------40--------40--|
--------------------------------------|--------------------------------------|
--35------35-35-----35------35-35-----|--35------35-35-----35------35-35-----|



--------------------------------------|--------------------------------------|
--46--46--46----46--46--46--46----46--|--46--46--46----46--46--46--46----46--|
--------------------------------------|--------------------------------------|
------40--------40------40--------40--|------40--------40------40--------40--|
--------------------------------------|--------------------------------------|
--35------35-35-----35------35-35-----|--35------35-35-----35------35-35-----|



----------------------------------------|--49----------------------------------|
--46--46--46----46--46--46--------------|--------------------------------------|
----------------------------------------|------51--51----51--51--51--51----51--|
------40--------40------40--40-40-40-40-|------40--------40------40--------40--|
----------------------------------------|--------------------------------------|
--35------35-35-----35------35----------|--35------35-35-----35------35-35-----|



----------------------------------------|--------------------------------------|
----------------------------------------|--------------------------------------|
--51--51--51----51--51--51--------------|--51--51--51----51--51--51--51----51--|
------40--------40------40--40-40-40-40-|------40--------40------40--------40--|
----------------------------------------|--------------------------------------|
--35------35-35-----35------35----------|--35------35-35-----35------35-35-----|



--------------------------------------|--------------------------------------|
--------------------------------------|--------------------------------------|
--51--51--51----51--51--51--51----51--|--51--51--51----51--51--51--51----51--|
------40--------40------40--------40--|------40--------40------40--------40--|
--------------------------------------|--------------------------------------|
--35------35-35-----35------35-35-----|--35------35-35-----35------35-35-----|



--------------------------|--------------------------|
--------------------------|--------------------------|
--------------------------|--------------------------|
--------------------------|--------------------------|
--------------------------|--------------------------|
--35----35----35----35----|--35----35----35----35----|



--------------------------|--------------------------|
--------------------------|--------------------------|
--------------------------|--------------------------|
--------------------------|--------------------------|
--------------------------|--------------------------|
--35----35----35----35----|--35----35----35----35----|



--------------------------|--------------------------|
--------------------------|--------------------------|
--------------------------|--------------------------|
--------------------------|--------------------------|
--------------------------|--------------------------|
--35----35----35----35----|--35----35----35----35----|



--------------------------|--------------------------|-----------------------|
--------------------------|--------------------------|-----------------------|
--------------------------|--------------------------|-----------------------|
--------------------------|--------------------------|---------------40--40--|
--------------------------|--------------------------|---------------41--41--|
--35----35----35----35----|--35----35----35----35----|---------------35--35--|



--------------------------------------|----------------------------------------|
--------------------------------------|----------------------------------------|
--51--51--51----51--51--51--51----51--|--51--51--51----51--51--51--------------|
------40--------40------40--------40--|------40--------40------40--40-40-40-40-|
--------------------------------------|----------------------------------------|
--35------35-35-----35------35-35-----|--35------35-35-----35------35----------|



--------------------------------------|----------------------------------------|
--------------------------------------|----------------------------------------|
--51--51--51----51--51--51--51----51--|--51--51--51----51--51--51--------------|
------40--------40------40--------40--|------40--------40------40--40-40-40-40-|
--------------------------------------|----------------------------------------|
--35------35-35-----35------35-35-----|--35------35-35-----35------35----------|



-----------------------------------|--57----------------------------------|
-----------------------------------|------46--46----46--46--46--46----46--|
-----------------------------------|--------------------------------------|
--40-40-40-40-40-40-40-40----------|------40--------40------40--------40--|
-----------------------------------|--------------------------------------|
--35----------35-------------------|--35------35-35-----35------35-35-----|



--------------------------------------|--------------------------------------|
--46--46--46----46--46--46--46----46--|--46--46--46----46--46--46--46----46--|
--------------------------------------|--------------------------------------|
------40--------40------40--------40--|------40--------40------40--------40--|
--------------------------------------|--------------------------------------|
--35------35-35-----35------35-35-----|--35------35-35-----35------35-35-----|



--------------------------------------|--------------------------------------|
--46--46--46----46--46--46--46----46--|--46--46--46----46--46--46--46----46--|
--------------------------------------|--------------------------------------|
------40--------40------40------------|------40--------40------40--------40--|
----------------------------41----41--|--------------------------------------|
--35------35-35-----35------35-35-----|--35------35-35-----35------35-35-----|



--------------------------------------|--------------------------------------|
--46--46--46----46--46--46--46----46--|--46--46--46----46--46--46--46----46--|
--------------------------------------|--------------------------------------|
------40--------40------40--------40--|------40--------40------40--------40--|
--------------------------------------|--------------------------------------|
--35------35-35-----35------35-35-----|--35------35-35-----35------35-35-----|



----------------------------------------|--------------------------------------|
--46--46--46----46--46--46--------------|--46--46--46----46--46--46--46----46--|
----------------------------------------|--------------------------------------|
------40--------40------40--40-40-40-40-|------40--------40------40--------40--|
----------------------------------------|--------------------------------------|
--35------35-35-----35------35----------|--35------35-35-----35------35-35-----|



--------------------------------------|--------------------------------------|
--46--46--46----46--46--46--46----46--|--46--46--46----46--46--46--46----46--|
--------------------------------------|--------------------------------------|
------40--------40------40--------40--|------40--------40------40--------40--|
--------------------------------------|--------------------------------------|
--35------35-35-----35------35-35-----|--35------35-35-----35------35-35-----|



--------------------------------------|--------------------------------------|
--46--46--46----46--46--46--46----46--|--46--46--46----46--46--46--46----46--|
--------------------------------------|--------------------------------------|
------40--------40------40------------|------40--------40------40--------40--|
----------------------------41----41--|--------------------------------------|
--35------35-35-----35------35-35-----|--35------35-35-----35------35-35-----|



--------------------------------------|--------------------------------------|
--46--46--46----46--46--46--46----46--|--46--46--46----46--46--46--46----46--|
--------------------------------------|--------------------------------------|
------40--------40------40--------40--|------40--------40------40--------40--|
--------------------------------------|--------------------------------------|
--35------35-35-----35------35-35-----|--35------35-35-----35------35-35-----|



----------------------------------------|--------------------------------------|
--46--46--46----46--46--46--------------|--46--46--46----46--46--46--46----46--|
----------------------------------------|--------------------------------------|
------40--------40------40--40-40-40-40-|------40--------40------40--------40--|
----------------------------------------|--------------------------------------|
--35------35-35-----35------35----------|--35------35-35-----35------35-35-----|



--------------------------------------|--------------------------------------|
--46--46--46----46--46--46--46----46--|--46--46--46----46--46--46--46----46--|
--------------------------------------|--------------------------------------|
------40--------40------40--------40--|------40--------40------40--------40--|
--------------------------------------|--------------------------------------|
--35------35-35-----35------35-35-----|--35------35-35-----35------35-35-----|



--------------------------------------|--------------------------------------|
--46--46--46----46--46--46--46----46--|--46--46--46----46--46--46--46----46--|
--------------------------------------|--------------------------------------|
------40--------40------40------------|------40--------40------40--------40--|
----------------------------41----41--|--------------------------------------|
--35------35-35-----35------35-35-----|--35------35-35-----35------35-35-----|



--------------------------------------|--------------------------------------|
--46--46--46----46--46--46--46----46--|--46--46--46----46--46--46--46----46--|
--------------------------------------|--------------------------------------|
------40--------40------40--------40--|------40--------40------40--------40--|
--------------------------------------|--------------------------------------|
--35------35-35-----35------35-35-----|--35------35-35-----35------35-35-----|



----------------------------------------|--------------------------------------|
--46--46--46----46--46--46--------------|--46--46--46----46--46--46--46----46--|
----------------------------------------|--------------------------------------|
------40--------40------40--40-40-40-40-|------40--------40------40--------40--|
----------------------------------------|--------------------------------------|
--35------35-35-----35------35----------|--35------35-35-----35------35-35-----|



--------------------------------------|--------------------------------------|
--46--46--46----46--46--46--46----46--|--46--46--46----46--46--46--46----46--|
--------------------------------------|--------------------------------------|
------40--------40------40--------40--|------40--------40------40--------40--|
--------------------------------------|--------------------------------------|
--35------35-35-----35------35-35-----|--35------35-35-----35------35-35-----|



--------------------------------------|--------------------------------------|
--46--46--46----46--46--46--46----46--|--46--46--46----46--46--46--46----46--|
--------------------------------------|--------------------------------------|
------40--------40------40------------|------40--------40------40--------40--|
----------------------------41----41--|--------------------------------------|
--35------35-35-----35------35-35-----|--35------35-35-----35------35-35-----|



--------------------------------------|--------------------------------------|
--46--46--46----46--46--46--46----46--|--46--46--46----46--46--46--46----46--|
--------------------------------------|--------------------------------------|
------40--------40------40--------40--|------40--------40------40--------40--|
--------------------------------------|--------------------------------------|
--35------35-35-----35------35-35-----|--35------35-35-----35------35-35-----|


----------------------------------------|------------------------|-------||
--46--46--46----46--46--46--------------|--44--44--44------------|-------||
----------------------------------------|------------------------|-------||
------40--------40------40--40-40-40-40-|--40--40--40------------|-------||
----------------------------------------|--43--43--43------------|-------||
--35------35-35-----35------35----------|--35--35--35------------|-------||

Tabl par P'tit Kepon
Lgende
40 = Caisse claire
35 = Grosse caisse
50 = Tom High
47 = Tom Middle
45 = Tom Middle basse
41 = Tom Basse
42 = Charleston ferme
46 = Charleston ouverte
49 = Crash1
57 = Crash2
51 = Ride
53 = Cloche de Ride

Haut de page
retour