Tablature


Les Sales Majests - Sois pauvre et tais-toi

Basse - Vlad
Vlad

Tempo = 150

G||-------|-------|-------|-------------------|-----------------------|
D||-------|-------|-------|-------------------|-----------------------|
A||-------|-------|-------|-------------------|-----------------------|
E||-------|-------|-------|-------------------|---------------11--10--|



---------------------------|-----------------------------|
---------------------------|-----------------------------|
-------------11--11----11--|--8--8----8--10--10----------|
--8--8----8----------------|---------------------11--10--|



---------------------------|-----------------------------|
---------------------------|-----------------------------|
-------------11--11----11--|--8--8----8--10--10----------|
--8--8----8----------------|---------------------11--10--|



-----------------------|-----------------------|-----------------------|
-----------------------|-----------------------|-----------------------|
-----------------------|-----------------------|-----------------------|
--8------------11--10--|--8------------11--10--|--8------------11--10--|


-------------|------------------------------|------------------------------|
-------------|------------------------------|------------------------------|
-------------|--------------11--11--11--11--|--8--8--8--8--10--10--10--10--|
--8---------|--8--8--8--8------------------|------------------------------|



------------------------------|------------------------------|
------------------------------|------------------------------|
--------------11--11--11--11--|--8--8--8--8--10--10--10--10--|
--8--8--8--8------------------|------------------------------|



------------------------------|------------------------------|
------------------------------|------------------------------|
--------------11--11--11--11--|--8--8--8--8--10--10--10--10--|
--8--8--8--8------------------|------------------------------|



------------------------------|------------------------------|
------------------------------|------------------------------|
--------------11--11--11--11--|--8--8--8--8--10--10--10--10--|
--8--8--8--8------------------|------------------------------|


----------------------------------|----------------------------------|
----------------------------------|----------------------------------|
--11--11--11--11--11--11--11--11--|--10--10--10--10--10--10--10--10--|
----------------------------------|----------------------------------|


----------------------------------|----------------------------------|
----------------------------------|----------------------------------|
--11--11--11--11--11--11--11--11--|--10--10--10--10--10--10--10--10--|
----------------------------------|----------------------------------|


---------------------------|------------------------------|
---------------------------|------------------------------|
--10--10--10--10-----------|--------------11--11--11--11--|
---------------------------|--8--8--8--8------------------|



------------------------------|------------------------------|
------------------------------|------------------------------|
--8--8--8--8--10--10--10--10--|--------------11--11--11--11--|
------------------------------|--8--8--8--8------------------|



------------------------------|------------------------------|
------------------------------|------------------------------|
--8--8--8--8--10--10--10--10--|--------------11--11--11--11--|
------------------------------|--8--8--8--8------------------|



------------------------------|------------------------------|
------------------------------|------------------------------|
--8--8--8--8--10--10--10--10--|--------------11--11--11--11--|
------------------------------|--8--8--8--8------------------|



------------------------------|------------------------------|
------------------------------|------------------------------|
--8--8--8--8--10--10--10--10--|--------------11--11--11--11--|
------------------------------|--8--8--8--8------------------|



------------------------------|------------------------------|
------------------------------|------------------------------|
--8--8--8--8--10--10--10--10--|--------------11--11--11--11--|
------------------------------|--8--8--8--8------------------|



------------------------------|------------------------------|
------------------------------|------------------------------|
--8--8--8--8--10--10--10--10--|--------------11--11--11--11--|
------------------------------|--8--8--8--8------------------|



------------------------------|------------------------------|
------------------------------|------------------------------|
--8--8--8--8--10--10--10--10--|--------------11--11--11--11--|
------------------------------|--8--8--8--8------------------|


------------------------------|----------------------------------|
------------------------------|----------------------------------|
--8--8--8--8--10--10--10--10--|--11--11--11--11--11--11--11--11--|
------------------------------|----------------------------------|


----------------------------------|----------------------------------|
----------------------------------|----------------------------------|
--10--10--10--10--10--10--10--10--|--11--11--11--11--11--11--11--11--|
----------------------------------|----------------------------------|


----------------------------------|---------------------------|
----------------------------------|---------------------------|
--10--10--10--10--10--10--10--10--|--10--10--10--10-----------|
----------------------------------|---------------------------|



------------------------------|------------------------------|
------------------------------|------------------------------|
--------------11--11--11--11--|--8--8--8--8--10--10--10--10--|
--8--8--8--8------------------|------------------------------|



------------------------------|------------------------------|
------------------------------|------------------------------|
--------------11--11--11--11--|--8--8--8--8--10--10--10--10--|
--8--8--8--8------------------|------------------------------|



------------------------------|------------------------------|
------------------------------|------------------------------|
--------------11--11--11--11--|--8--8--8--8--10--10--10--10--|
--8--8--8--8------------------|------------------------------|



------------------------------|------------------------------|
------------------------------|------------------------------|
--------------11--11--11--11--|--8--8--8--8--10--10--10--10--|
--8--8--8--8------------------|------------------------------|


----------------------------------|----------------------------------|
----------------------------------|----------------------------------|
--11--11--11--11--11--11--11--11--|--10--10--10--10--10--10--10--10--|
----------------------------------|----------------------------------|


----------------------------------|----------------------------------|
----------------------------------|----------------------------------|
--11--11--11--11--11--11--11--11--|--10--10--10--10--10--10--10--10--|
----------------------------------|----------------------------------|


|---------3---------|
--------------------------------|------------------------------|
--------------------------------|------------------------------|
--10--------10--------10--------|--------------11--11--11--11--|
--------------------------------|--8--8--8--8------------------|



------------------------------|------------------------------|
------------------------------|------------------------------|
--8--8--8--8--10--10--10--10--|--------------11--11--11--11--|
------------------------------|--8--8--8--8------------------|



------------------------------|------------------------------|
------------------------------|------------------------------|
--8--8--8--8--10--10--10--10--|--------------11--11--11--11--|
------------------------------|--8--8--8--8------------------|



------------------------------|------------------------------|
------------------------------|------------------------------|
--8--8--8--8--10--10--10--10--|--------------11--11--11--11--|
------------------------------|--8--8--8--8------------------|



------------------------------|----------------------------------|
------------------------------|----------------------------------|
--8--8--8--8--10--10--10--10--|--11--11--11--11--11--11--11--11--|
------------------------------|----------------------------------|



----------------------------------|----------------------------------|
----------------------------------|----------------------------------|
--10--10--10--10--10--10--10--10--|--11--11--11--11--11--11--11--11--|
----------------------------------|----------------------------------|


----------------------------------|--------------------|---------------------|
----------------------------------|--------------------|---------------------|
--10--10--10--10--10--10--10--10--|--10----------------|---------------------|
----------------------------------|--------------------|--9------------------|


EEEEEEEE
-------|-------|-------|-------|------------------------------|
-------|-------|-------|-------|------------------------------|
-------|-------|-------|-------|--------------11--11--11--11--|
-------|-------|-------|-------|--8--8--8--8------------------|



------------------------------|------------------------------|
------------------------------|------------------------------|
--8--8--8--8--10--10--10--10--|--------------11--11--11--11--|
------------------------------|--8--8--8--8------------------|


------------------------------|----------------------------------|
------------------------------|----------------------------------|
--8--8--8--8--10--10--10--10--|--11--11--11--11--11--11--11--11--|
------------------------------|----------------------------------|


----------------------------------|----------------------------------|
----------------------------------|----------------------------------|
--10--10--10--10--10--10--10--10--|--11--11--11--11--11--11--11--11--|
----------------------------------|----------------------------------|


----------------------------------|---------------------------|
----------------------------------|---------------------------|
--10--10--10--10--10--10--10--10--|--10--10--10--10-----------|
----------------------------------|---------------------------|



------------------------------|------------------------------|
------------------------------|------------------------------|
--------------11--11--11--11--|--8--8--8--8--10--10--10--10--|
--8--8--8--8------------------|------------------------------|



------------------------------|------------------------------|
------------------------------|------------------------------|
--------------11--11--11--11--|--8--8--8--8--10--10--10--10--|
--8--8--8--8------------------|------------------------------|



------------------------------|------------------------------|
------------------------------|------------------------------|
--------------11--11--11--11--|--8--8--8--8--10--10--10--10--|
--8--8--8--8------------------|------------------------------|



------------------------------|------------------------------|
------------------------------|------------------------------|
--------------11--11--11--11--|--8--8--8--8--10--10--10--10--|
--8--8--8--8------------------|------------------------------|



------------------------------|------------------------------|
------------------------------|------------------------------|
--------------11--11--11--11--|--8--8--8--8--10--10--10--10--|
--8--8--8--8------------------|------------------------------|



------------------------------|------------------------------|
------------------------------|------------------------------|
--------------11--11--11--11--|--8--8--8--8--10--10--10--10--|
--8--8--8--8------------------|------------------------------|



------------------------------|------------------------------|
------------------------------|------------------------------|
--------------11--11--11--11--|--8--8--8--8--10--10--10--10--|
--8--8--8--8------------------|------------------------------|



------------------------------|------------------------------|
------------------------------|------------------------------|
--------------11--11--11--11--|--8--8--8--8--10--10--10--10--|
--8--8--8--8------------------|------------------------------|



------------------------------|------------------------------|
------------------------------|------------------------------|
--------------11--11--11--11--|--8--8--8--8--10--10--10--10--|
--8--8--8--8------------------|------------------------------|



------------------------------|------------------------------|
------------------------------|------------------------------|
--------------11--11--11--11--|--8--8--8--8--10--10--10--10--|
--8--8--8--8------------------|------------------------------|



------------------------------|------------------------------|
------------------------------|------------------------------|
--------------11--11--11--11--|--8--8--8--8--10--10--10--10--|
--8--8--8--8------------------|------------------------------|



------------------------------|------------------------------|
------------------------------|------------------------------|
--------------11--11--11--11--|--8--8--8--8--10--10--10--10--|
--8--8--8--8------------------|------------------------------|



------------------------------|------------------------------|
------------------------------|------------------------------|
--------------11--11--11--11--|--8--8--8--8--10--10--10--10--|
--8--8--8--8------------------|------------------------------|



------------------------------|------------------------------|
------------------------------|------------------------------|
--------------11--11--11--11--|--8--8--8--8--10--10--10--10--|
--8--8--8--8------------------|------------------------------|



------------------------------|------------------------------|
------------------------------|------------------------------|
--------------11--11--11--11--|--8--8--8--8--10--10--10--10--|
--8--8--8--8------------------|------------------------------|



------------------------------|------------------------------|
------------------------------|------------------------------|
--------------11--11--11--11--|--8--8--8--8--10--10--10--10--|
--8--8--8--8------------------|------------------------------|


-----------------------|-------||
-----------------------|-------||
-----------------------|-------||
--11--10--8------------|-------||

Tabl par P'tit Kepon

Haut de page
retour