Tablature


Les Sales Majests - Sois pauvre et tais-toi

Guitare - Yves et Yann
Yves et Yann

Tempo = 150
GuitareSoliste


D#5D5C5G#5
E||-----------------------|------------------------------|
B||-----------------------|------------------------------|
G||-----------------------|----------------13--13----13--|
D||---------------13--12--|--10--10----10--13--13----13--|
A||---------------13--12--|--10--10----10--11--11----11--|
E||---------------11--10--|---8---8-----8----------------|


F5G5
--------------------------------|------------------------------|
--------------------------------|------------------------------|
--10--10----10--12--12----------|----------------13--13----13--|
--10--10----10--12--12--13--12--|--10--10----10--13--13----13--|
---8---8-----8--10--10--13--12--|--10--10----10--11--11----11--|
------------------------11--10--|---8---8-----8----------------|


--------------------------------|------------------------------|
--------------------------------|------------------------------|
--10--10----10--12--12----------|----------------13--13----13--|
--10--10----10--12--12--13--12--|--10--10----10--13--13----13--|
---8---8-----8--10--10--13--12--|--10--10----10--11--11----11--|
------------------------11--10--|---8---8-----8----------------|


--------------------------------|------------------------------|
--------------------------------|------------------------------|
--10--10----10--12--12----------|----------------13--13----13--|
--10--10----10--12--12--13--12--|--10--10----10--13--13----13--|
---8---8-----8--10--10--13--12--|--10--10----10--11--11----11--|
------------------------11--10--|---8---8-----8----------------|


--------------------------------|------------------------|
--------------------------------|------------------------|
--10--10----10--12--12----------|------------------------|
--10--10----10--12--12--13--12--|--10------------13--12--|
---8---8-----8--10--10--13--12--|--10------------13--12--|
------------------------11--10--|---8------------11--10--|


------------------------|------------------------|-------------|
------------------------|------------------------|-------------|
------------------------|------------------------|-------------|
--10------------13--12--|--10------------13--12--|--10---------|
--10------------13--12--|--10------------13--12--|--10---------|
---8------------11--10--|---8------------11--10--|---8---------|


C5G#5F5G5
----------------------------------|----------------------------------|
----------------------------------|----------------------------------|
------------------13--13--13--13--|--10--10--10--10--12--12--12--12--|
--10--10--10--10--13--13--13--13--|--10--10--10--10--12--12--12--12--|
--10--10--10--10--11--11--11--11--|---8---8---8---8--10--10--10--10--|
---8---8---8---8------------------|----------------------------------|


----------------------------------|----------------------------------|
----------------------------------|----------------------------------|
------------------13--13--13--13--|--10--10--10--10--12--12--12--12--|
--10--10--10--10--13--13--13--13--|--10--10--10--10--12--12--12--12--|
--10--10--10--10--11--11--11--11--|---8---8---8---8--10--10--10--10--|
---8---8---8---8------------------|----------------------------------|


----------------------------------|----------------------------------|
----------------------------------|----------------------------------|
------------------13--13--13--13--|--10--10--10--10--12--12--12--12--|
--10--10--10--10--13--13--13--13--|--10--10--10--10--12--12--12--12--|
--10--10--10--10--11--11--11--11--|---8---8---8---8--10--10--10--10--|
---8---8---8---8------------------|----------------------------------|


----------------------------------|----------------------------------|
----------------------------------|----------------------------------|
------------------13--13--13--13--|--10--10--10--10--12--12--12--12--|
--10--10--10--10--13--13--13--13--|--10--10--10--10--12--12--12--12--|
--10--10--10--10--11--11--11--11--|---8---8---8---8--10--10--10--10--|
---8---8---8---8------------------|----------------------------------|


G#5G5
----------------------------------|----------------------------------|
----------------------------------|----------------------------------|
--13--13--13--13--13--13--13--13--|--12--12--12--12--12--12--12--12--|
--13--13--13--13--13--13--13--13--|--12--12--12--12--12--12--12--12--|
--11--11--11--11--11--11--11--11--|--10--10--10--10--10--10--10--10--|
----------------------------------|----------------------------------|


----------------------------------|----------------------------------|
----------------------------------|----------------------------------|
--13--13--13--13--13--13--13--13--|--12--12--12--12--12--12--12--12--|
--13--13--13--13--13--13--13--13--|--12--12--12--12--12--12--12--12--|
--11--11--11--11--11--11--11--11--|--10--10--10--10--10--10--10--10--|
----------------------------------|----------------------------------|


C5G#5
---------------------------|----------------------------------|
---------------------------|----------------------------------|
--12--12--12--12-----------|------------------13--13--13--13--|
--12--12--12--12-----------|--10--10--10--10--13--13--13--13--|
--10--10--10--10-----------|--10--10--10--10--11--11--11--11--|
---------------------------|---8---8---8---8------------------|


F5G5
----------------------------------|----------------------------------|
----------------------------------|----------------------------------|
--10--10--10--10--12--12--12--12--|------------------13--13--13--13--|
--10--10--10--10--12--12--12--12--|--10--10--10--10--13--13--13--13--|
---8---8---8---8--10--10--10--10--|--10--10--10--10--11--11--11--11--|
----------------------------------|---8---8---8---8------------------|


----------------------------------|----------------------------------|
----------------------------------|----------------------------------|
--10--10--10--10--12--12--12--12--|------------------13--13--13--13--|
--10--10--10--10--12--12--12--12--|--10--10--10--10--13--13--13--13--|
---8---8---8---8--10--10--10--10--|--10--10--10--10--11--11--11--11--|
----------------------------------|---8---8---8---8------------------|


----------------------------------|----------------------------------|
----------------------------------|----------------------------------|
--10--10--10--10--12--12--12--12--|------------------13--13--13--13--|
--10--10--10--10--12--12--12--12--|--10--10--10--10--13--13--13--13--|
---8---8---8---8--10--10--10--10--|--10--10--10--10--11--11--11--11--|
----------------------------------|---8---8---8---8------------------|


C5G#5
----------------------------------|----------------------------------|
----------------------------------|----------------------------------|
--10--10--10--10--12--12--12--12--|------------------13--13--13--13--|
--10--10--10--10--12--12--12--12--|--10--10--10--10--13--13--13--13--|
---8---8---8---8--10--10--10--10--|--10--10--10--10--11--11--11--11--|
----------------------------------|---8---8---8---8------------------|


F5G5
----------------------------------|----------------------------------|
----------------------------------|----------------------------------|
--10--10--10--10--12--12--12--12--|------------------13--13--13--13--|
--10--10--10--10--12--12--12--12--|--10--10--10--10--13--13--13--13--|
---8---8---8---8--10--10--10--10--|--10--10--10--10--11--11--11--11--|
----------------------------------|---8---8---8---8------------------|


----------------------------------|----------------------------------|
----------------------------------|----------------------------------|
--10--10--10--10--12--12--12--12--|------------------13--13--13--13--|
--10--10--10--10--12--12--12--12--|--10--10--10--10--13--13--13--13--|
---8---8---8---8--10--10--10--10--|--10--10--10--10--11--11--11--11--|
----------------------------------|---8---8---8---8------------------|


----------------------------------|----------------------------------|
----------------------------------|----------------------------------|
--10--10--10--10--12--12--12--12--|------------------13--13--13--13--|
--10--10--10--10--12--12--12--12--|--10--10--10--10--13--13--13--13--|
---8---8---8---8--10--10--10--10--|--10--10--10--10--11--11--11--11--|
----------------------------------|---8---8---8---8------------------|


G#5
----------------------------------|----------------------------------|
----------------------------------|----------------------------------|
--10--10--10--10--12--12--12--12--|--13--13--13--13--13--13--13--13--|
--10--10--10--10--12--12--12--12--|--13--13--13--13--13--13--13--13--|
---8---8---8---8--10--10--10--10--|--11--11--11--11--11--11--11--11--|
----------------------------------|----------------------------------|


G5
----------------------------------|----------------------------------|
----------------------------------|----------------------------------|
--12--12--12--12--12--12--12--12--|--13--13--13--13--13--13--13--13--|
--12--12--12--12--12--12--12--12--|--13--13--13--13--13--13--13--13--|
--10--10--10--10--10--10--10--10--|--11--11--11--11--11--11--11--11--|
----------------------------------|----------------------------------|


----------------------------------|---------------------------|
----------------------------------|---------------------------|
--12--12--12--12--12--12--12--12--|--12--12--12--12-----------|
--12--12--12--12--12--12--12--12--|--12--12--12--12-----------|
--10--10--10--10--10--10--10--10--|--10--10--10--10-----------|
----------------------------------|---------------------------|


C5G#5F5G5
----------------------------------|----------------------------------|
----------------------------------|----------------------------------|
------------------13--13--13--13--|--10--10--10--10--12--12--12--12--|
--10--10--10--10--13--13--13--13--|--10--10--10--10--12--12--12--12--|
--10--10--10--10--11--11--11--11--|---8---8---8---8--10--10--10--10--|
---8---8---8---8------------------|----------------------------------|


----------------------------------|----------------------------------|
----------------------------------|----------------------------------|
------------------13--13--13--13--|--10--10--10--10--12--12--12--12--|
--10--10--10--10--13--13--13--13--|--10--10--10--10--12--12--12--12--|
--10--10--10--10--11--11--11--11--|---8---8---8---8--10--10--10--10--|
---8---8---8---8------------------|----------------------------------|


----------------------------------|----------------------------------|
----------------------------------|----------------------------------|
------------------13--13--13--13--|--10--10--10--10--12--12--12--12--|
--10--10--10--10--13--13--13--13--|--10--10--10--10--12--12--12--12--|
--10--10--10--10--11--11--11--11--|---8---8---8---8--10--10--10--10--|
---8---8---8---8------------------|----------------------------------|


----------------------------------|----------------------------------|
----------------------------------|----------------------------------|
------------------13--13--13--13--|--10--10--10--10--12--12--12--12--|
--10--10--10--10--13--13--13--13--|--10--10--10--10--12--12--12--12--|
--10--10--10--10--11--11--11--11--|---8---8---8---8--10--10--10--10--|
---8---8---8---8------------------|----------------------------------|



----------------------------------|----------------------------------|
----------------------------------|----------------------------------|
--13--13--13--13--13--13--13--13--|--12--12--12--12--12--12--12--12--|
--13--13--13--13--13--13--13--13--|--12--12--12--12--12--12--12--12--|
--11--11--11--11--11--11--11--11--|--10--10--10--10--10--10--10--10--|
----------------------------------|----------------------------------|


----------------------------------|----------------------------------|
----------------------------------|----------------------------------|
--13--13--13--13--13--13--13--13--|--12--12--12--12--12--12--12--12--|
--13--13--13--13--13--13--13--13--|--12--12--12--12--12--12--12--12--|
--11--11--11--11--11--11--11--11--|--10--10--10--10--10--10--10--10--|
----------------------------------|----------------------------------|


|---------3---------|
--------------------------------|
--------------------------------|
--12--------12--------12--------|
--12--------12--------12--------|
--10--------10--------10--------|
--------------------------------|


--8h-10p-8h-11p-8h-10p-8h-11p-8h-10p-8h-11p-8h-10p-8h-11h-|
----------------------------------------------------------|
----------------------------------------------------------|
----------------------------------------------------------|
----------------------------------------------------------|
----------------------------------------------------------|


--8h-10p-8h-11p-8h-10p-8h-11p-8h-10p-8h-11p-8h-10p-8h-11h-|
----------------------------------------------------------|
----------------------------------------------------------|
----------------------------------------------------------|
----------------------------------------------------------|
----------------------------------------------------------|


--8h-10p-8h-11p-8h-10p-8h-11p-8h-10p-8h-11p-8h-10p-8h-11h-|
----------------------------------------------------------|
----------------------------------------------------------|
----------------------------------------------------------|
----------------------------------------------------------|
----------------------------------------------------------|


--8h-10p-8h-11p-8h-10p-8h-11p-8h-10p-8h-11p-8h----|
--------------------------------------------------|
--------------------------------------------------|
--------------------------------------------------|
--------------------------------------------------|
--------------------------------------------------|


EEEEEEEEEEEEEEEE
--11--11--10--10--8--8----------|--8--8----------------------|
------------------------11--11--|--------11--11--9--9--8--8--|
--------------------------------|----------------------------|
--------------------------------|----------------------------|
--------------------------------|----------------------------|
--------------------------------|----------------------------|


EEEEEEEEEEEEEEEE
--11--11--10--10--8--8----------|--8--8----------------------|
------------------------11--11--|--------11--11--9--9--8--8--|
--------------------------------|----------------------------|
--------------------------------|----------------------------|
--------------------------------|----------------------------|
--------------------------------|----------------------------|


--8h-10p-8h-11p-8h-10p-8h-11p-8h-10p-8h-11p-8h-10p-8h-11h-|
----------------------------------------------------------|
----------------------------------------------------------|
----------------------------------------------------------|
----------------------------------------------------------|
----------------------------------------------------------|


--8h-10p-8h-11p-8h-10p-8h-11p-8h-10p-8h-11p-8h-10p-8h-11h-|
----------------------------------------------------------|
----------------------------------------------------------|
----------------------------------------------------------|
----------------------------------------------------------|
----------------------------------------------------------|


--8h-10p-8h-11p-8h-10p-8h-11p-8h-10p-8h-11p-8h-10p-8h-11h-|
----------------------------------------------------------|
----------------------------------------------------------|
----------------------------------------------------------|
----------------------------------------------------------|
----------------------------------------------------------|


--8------7------L----|--8------7------L----|----------------------|-----------|
---------------------|---------------------|----------------------|-----------|
---------------------|---------------------|----------------------|-----------|
---------------------|---------------------|--11------------------|-----------|
---------------------|---------------------|--11------------------|-----------|
---------------------|---------------------|---9------------------|-----------|


PMPMPMPMPMPMPMPM
-----------|-----------|-----------|----------------------------------|
-----------|-----------|-----------|----------------------------------|
-----------|-----------|-----------|------------------13--13--13--13--|
-----------|-----------|-----------|--10--10--10--10--13--13--13--13--|
-----------|-----------|-----------|--10--10--10--10--11--11--11--11--|
-----------|-----------|-----------|---8---8---8---8------------------|


PMPMPMPMPMPMPMPMPMPMPMPMPMPMPMPM
----------------------------------|----------------------------------|
----------------------------------|----------------------------------|
--10--10--10--10--12--12--12--12--|------------------13--13--13--13--|
--10--10--10--10--12--12--12--12--|--10--10--10--10--13--13--13--13--|
---8---8---8---8--10--10--10--10--|--10--10--10--10--11--11--11--11--|
----------------------------------|---8---8---8---8------------------|


PMPMPMPMPMPMPMPM
----------------------------------|----------------------------------|
----------------------------------|----------------------------------|
--10--10--10--10--12--12--12--12--|--13--13--13--13--13--13--13--13--|
--10--10--10--10--12--12--12--12--|--13--13--13--13--13--13--13--13--|
---8---8---8---8--10--10--10--10--|--11--11--11--11--11--11--11--11--|
----------------------------------|----------------------------------|


----------------------------------|----------------------------------|
----------------------------------|----------------------------------|
--12--12--12--12--12--12--12--12--|--13--13--13--13--13--13--13--13--|
--12--12--12--12--12--12--12--12--|--13--13--13--13--13--13--13--13--|
--10--10--10--10--10--10--10--10--|--11--11--11--11--11--11--11--11--|
----------------------------------|----------------------------------|


----------------------------------|---------------------------|
----------------------------------|---------------------------|
--12--12--12--12--12--12--12--12--|--12--12--12--12-----------|
--12--12--12--12--12--12--12--12--|--12--12--12--12-----------|
--10--10--10--10--10--10--10--10--|--10--10--10--10-----------|
----------------------------------|---------------------------|


C5G#5F5G5
----------------------------------|----------------------------------|
----------------------------------|----------------------------------|
------------------13--13--13--13--|--10--10--10--10--12--12--12--12--|
--10--10--10--10--13--13--13--13--|--10--10--10--10--12--12--12--12--|
--10--10--10--10--11--11--11--11--|---8---8---8---8--10--10--10--10--|
---8---8---8---8------------------|----------------------------------|


----------------------------------|----------------------------------|
----------------------------------|----------------------------------|
------------------13--13--13--13--|--10--10--10--10--12--12--12--12--|
--10--10--10--10--13--13--13--13--|--10--10--10--10--12--12--12--12--|
--10--10--10--10--11--11--11--11--|---8---8---8---8--10--10--10--10--|
---8---8---8---8------------------|----------------------------------|


----------------------------------|----------------------------------|
----------------------------------|----------------------------------|
------------------13--13--13--13--|--10--10--10--10--12--12--12--12--|
--10--10--10--10--13--13--13--13--|--10--10--10--10--12--12--12--12--|
--10--10--10--10--11--11--11--11--|---8---8---8---8--10--10--10--10--|
---8---8---8---8------------------|----------------------------------|


----------------------------------|----------------------------------|
----------------------------------|----------------------------------|
------------------13--13--13--13--|--10--10--10--10--12--12--12--12--|
--10--10--10--10--13--13--13--13--|--10--10--10--10--12--12--12--12--|
--10--10--10--10--11--11--11--11--|---8---8---8---8--10--10--10--10--|
---8---8---8---8------------------|----------------------------------|


C5G#5F5G5
----------------------------------|----------------------------------|
----------------------------------|----------------------------------|
------------------13--13--13--13--|--10--10--10--10--12--12--12--12--|
--10--10--10--10--13--13--13--13--|--10--10--10--10--12--12--12--12--|
--10--10--10--10--11--11--11--11--|---8---8---8---8--10--10--10--10--|
---8---8---8---8------------------|----------------------------------|


----------------------------------|----------------------------------|
----------------------------------|----------------------------------|
------------------13--13--13--13--|--10--10--10--10--12--12--12--12--|
--10--10--10--10--13--13--13--13--|--10--10--10--10--12--12--12--12--|
--10--10--10--10--11--11--11--11--|---8---8---8---8--10--10--10--10--|
---8---8---8---8------------------|----------------------------------|


----------------------------------|----------------------------------|
----------------------------------|----------------------------------|
------------------13--13--13--13--|--10--10--10--10--12--12--12--12--|
--10--10--10--10--13--13--13--13--|--10--10--10--10--12--12--12--12--|
--10--10--10--10--11--11--11--11--|---8---8---8---8--10--10--10--10--|
---8---8---8---8------------------|----------------------------------|


----------------------------------|----------------------------------|
----------------------------------|----------------------------------|
------------------13--13--13--13--|--10--10--10--10--12--12--12--12--|
--10--10--10--10--13--13--13--13--|--10--10--10--10--12--12--12--12--|
--10--10--10--10--11--11--11--11--|---8---8---8---8--10--10--10--10--|
---8---8---8---8------------------|----------------------------------|


C5G#5F5G5
----------------------------------|----------------------------------|
----------------------------------|----------------------------------|
------------------13--13--13--13--|--10--10--10--10--12--12--12--12--|
--10--10--10--10--13--13--13--13--|--10--10--10--10--12--12--12--12--|
--10--10--10--10--11--11--11--11--|---8---8---8---8--10--10--10--10--|
---8---8---8---8------------------|----------------------------------|


----------------------------------|----------------------------------|
----------------------------------|----------------------------------|
------------------13--13--13--13--|--10--10--10--10--12--12--12--12--|
--10--10--10--10--13--13--13--13--|--10--10--10--10--12--12--12--12--|
--10--10--10--10--11--11--11--11--|---8---8---8---8--10--10--10--10--|
---8---8---8---8------------------|----------------------------------|


----------------------------------|----------------------------------|
----------------------------------|----------------------------------|
------------------13--13--13--13--|--10--10--10--10--12--12--12--12--|
--10--10--10--10--13--13--13--13--|--10--10--10--10--12--12--12--12--|
--10--10--10--10--11--11--11--11--|---8---8---8---8--10--10--10--10--|
---8---8---8---8------------------|----------------------------------|


----------------------------------|----------------------------------|
----------------------------------|----------------------------------|
------------------13--13--13--13--|--10--10--10--10--12--12--12--12--|
--10--10--10--10--13--13--13--13--|--10--10--10--10--12--12--12--12--|
--10--10--10--10--11--11--11--11--|---8---8---8---8--10--10--10--10--|
---8---8---8---8------------------|----------------------------------|


C5G#5F5G5
----------------------------------|----------------------------------|
----------------------------------|----------------------------------|
------------------13--13--13--13--|--10--10--10--10--12--12--12--12--|
--10--10--10--10--13--13--13--13--|--10--10--10--10--12--12--12--12--|
--10--10--10--10--11--11--11--11--|---8---8---8---8--10--10--10--10--|
---8---8---8---8------------------|----------------------------------|


----------------------------------|----------------------------------|
----------------------------------|----------------------------------|
------------------13--13--13--13--|--10--10--10--10--12--12--12--12--|
--10--10--10--10--13--13--13--13--|--10--10--10--10--12--12--12--12--|
--10--10--10--10--11--11--11--11--|---8---8---8---8--10--10--10--10--|
---8---8---8---8------------------|----------------------------------|


----------------------------------|----------------------------------|
----------------------------------|----------------------------------|
------------------13--13--13--13--|--10--10--10--10--12--12--12--12--|
--10--10--10--10--13--13--13--13--|--10--10--10--10--12--12--12--12--|
--10--10--10--10--11--11--11--11--|---8---8---8---8--10--10--10--10--|
---8---8---8---8------------------|----------------------------------|


----------------------------------|----------------------------------|
----------------------------------|----------------------------------|
------------------13--13--13--13--|--10--10--10--10--12--12--12--12--|
--10--10--10--10--13--13--13--13--|--10--10--10--10--12--12--12--12--|
--10--10--10--10--11--11--11--11--|---8---8---8---8--10--10--10--10--|
---8---8---8---8------------------|----------------------------------|


------------------------|---------------||
------------------------|---------------||
------------------------|---------------||
--13--12--10------------|---------------||
--13--12--10------------|---------------||
--11--10---8------------|---------------||


Guitarerithmique


D#5D5C5G#5
E||-----------------------|------------------------------|
B||-----------------------|------------------------------|
G||-----------------------|----------------13--13----13--|
D||---------------13--12--|--10--10----10--13--13----13--|
A||---------------13--12--|--10--10----10--11--11----11--|
E||---------------11--10--|---8---8-----8----------------|


F5G5
--------------------------------|------------------------------|
--------------------------------|------------------------------|
--10--10----10--12--12----------|----------------13--13----13--|
--10--10----10--12--12--13--12--|--10--10----10--13--13----13--|
---8---8-----8--10--10--13--12--|--10--10----10--11--11----11--|
------------------------11--10--|---8---8-----8----------------|


--------------------------------|------------------------------|
--------------------------------|------------------------------|
--10--10----10--12--12----------|----------------13--13----13--|
--10--10----10--12--12--13--12--|--10--10----10--13--13----13--|
---8---8-----8--10--10--13--12--|--10--10----10--11--11----11--|
------------------------11--10--|---8---8-----8----------------|


--------------------------------|------------------------------|
--------------------------------|------------------------------|
--10--10----10--12--12----------|----------------13--13----13--|
--10--10----10--12--12--13--12--|--10--10----10--13--13----13--|
---8---8-----8--10--10--13--12--|--10--10----10--11--11----11--|
------------------------11--10--|---8---8-----8----------------|


--------------------------------|------------------------|
--------------------------------|------------------------|
--10--10----10--12--12----------|------------------------|
--10--10----10--12--12--13--12--|--10------------13--12--|
---8---8-----8--10--10--13--12--|--10------------13--12--|
------------------------11--10--|---8------------11--10--|


------------------------|------------------------|-------------|
------------------------|------------------------|-------------|
------------------------|------------------------|-------------|
--10------------13--12--|--10------------13--12--|--10---------|
--10------------13--12--|--10------------13--12--|--10---------|
---8------------11--10--|---8------------11--10--|---8---------|


C5G#5F5G5
----------------------------------|----------------------------------|
----------------------------------|----------------------------------|
------------------13--13--13--13--|--10--10--10--10--12--12--12--12--|
--10--10--10--10--13--13--13--13--|--10--10--10--10--12--12--12--12--|
--10--10--10--10--11--11--11--11--|---8---8---8---8--10--10--10--10--|
---8---8---8---8------------------|----------------------------------|


----------------------------------|----------------------------------|
----------------------------------|----------------------------------|
------------------13--13--13--13--|--10--10--10--10--12--12--12--12--|
--10--10--10--10--13--13--13--13--|--10--10--10--10--12--12--12--12--|
--10--10--10--10--11--11--11--11--|---8---8---8---8--10--10--10--10--|
---8---8---8---8------------------|----------------------------------|


----------------------------------|----------------------------------|
----------------------------------|----------------------------------|
------------------13--13--13--13--|--10--10--10--10--12--12--12--12--|
--10--10--10--10--13--13--13--13--|--10--10--10--10--12--12--12--12--|
--10--10--10--10--11--11--11--11--|---8---8---8---8--10--10--10--10--|
---8---8---8---8------------------|----------------------------------|


----------------------------------|----------------------------------|
----------------------------------|----------------------------------|
------------------13--13--13--13--|--10--10--10--10--12--12--12--12--|
--10--10--10--10--13--13--13--13--|--10--10--10--10--12--12--12--12--|
--10--10--10--10--11--11--11--11--|---8---8---8---8--10--10--10--10--|
---8---8---8---8------------------|----------------------------------|


G#5G5
----------------------------------|----------------------------------|
----------------------------------|----------------------------------|
--13--13--13--13--13--13--13--13--|--12--12--12--12--12--12--12--12--|
--13--13--13--13--13--13--13--13--|--12--12--12--12--12--12--12--12--|
--11--11--11--11--11--11--11--11--|--10--10--10--10--10--10--10--10--|
----------------------------------|----------------------------------|


----------------------------------|----------------------------------|
----------------------------------|----------------------------------|
--13--13--13--13--13--13--13--13--|--12--12--12--12--12--12--12--12--|
--13--13--13--13--13--13--13--13--|--12--12--12--12--12--12--12--12--|
--11--11--11--11--11--11--11--11--|--10--10--10--10--10--10--10--10--|
----------------------------------|----------------------------------|


C5G#5
---------------------------|----------------------------------|
---------------------------|----------------------------------|
--12--12--12--12-----------|------------------13--13--13--13--|
--12--12--12--12-----------|--10--10--10--10--13--13--13--13--|
--10--10--10--10-----------|--10--10--10--10--11--11--11--11--|
---------------------------|---8---8---8---8------------------|


F5G5
----------------------------------|----------------------------------|
----------------------------------|----------------------------------|
--10--10--10--10--12--12--12--12--|------------------13--13--13--13--|
--10--10--10--10--12--12--12--12--|--10--10--10--10--13--13--13--13--|
---8---8---8---8--10--10--10--10--|--10--10--10--10--11--11--11--11--|
----------------------------------|---8---8---8---8------------------|


----------------------------------|----------------------------------|
----------------------------------|----------------------------------|
--10--10--10--10--12--12--12--12--|------------------13--13--13--13--|
--10--10--10--10--12--12--12--12--|--10--10--10--10--13--13--13--13--|
---8---8---8---8--10--10--10--10--|--10--10--10--10--11--11--11--11--|
----------------------------------|---8---8---8---8------------------|


----------------------------------|----------------------------------|
----------------------------------|----------------------------------|
--10--10--10--10--12--12--12--12--|------------------13--13--13--13--|
--10--10--10--10--12--12--12--12--|--10--10--10--10--13--13--13--13--|
---8---8---8---8--10--10--10--10--|--10--10--10--10--11--11--11--11--|
----------------------------------|---8---8---8---8------------------|


C5G#5
----------------------------------|----------------------------------|
----------------------------------|----------------------------------|
--10--10--10--10--12--12--12--12--|------------------13--13--13--13--|
--10--10--10--10--12--12--12--12--|--10--10--10--10--13--13--13--13--|
---8---8---8---8--10--10--10--10--|--10--10--10--10--11--11--11--11--|
----------------------------------|---8---8---8---8------------------|


F5G5
----------------------------------|----------------------------------|
----------------------------------|----------------------------------|
--10--10--10--10--12--12--12--12--|------------------13--13--13--13--|
--10--10--10--10--12--12--12--12--|--10--10--10--10--13--13--13--13--|
---8---8---8---8--10--10--10--10--|--10--10--10--10--11--11--11--11--|
----------------------------------|---8---8---8---8------------------|


----------------------------------|----------------------------------|
----------------------------------|----------------------------------|
--10--10--10--10--12--12--12--12--|------------------13--13--13--13--|
--10--10--10--10--12--12--12--12--|--10--10--10--10--13--13--13--13--|
---8---8---8---8--10--10--10--10--|--10--10--10--10--11--11--11--11--|
----------------------------------|---8---8---8---8------------------|


----------------------------------|----------------------------------|
----------------------------------|----------------------------------|
--10--10--10--10--12--12--12--12--|------------------13--13--13--13--|
--10--10--10--10--12--12--12--12--|--10--10--10--10--13--13--13--13--|
---8---8---8---8--10--10--10--10--|--10--10--10--10--11--11--11--11--|
----------------------------------|---8---8---8---8------------------|


G#5
----------------------------------|----------------------------------|
----------------------------------|----------------------------------|
--10--10--10--10--12--12--12--12--|--13--13--13--13--13--13--13--13--|
--10--10--10--10--12--12--12--12--|--13--13--13--13--13--13--13--13--|
---8---8---8---8--10--10--10--10--|--11--11--11--11--11--11--11--11--|
----------------------------------|----------------------------------|


G5
----------------------------------|----------------------------------|
----------------------------------|----------------------------------|
--12--12--12--12--12--12--12--12--|--13--13--13--13--13--13--13--13--|
--12--12--12--12--12--12--12--12--|--13--13--13--13--13--13--13--13--|
--10--10--10--10--10--10--10--10--|--11--11--11--11--11--11--11--11--|
----------------------------------|----------------------------------|


----------------------------------|---------------------------|
----------------------------------|---------------------------|
--12--12--12--12--12--12--12--12--|--12--12--12--12-----------|
--12--12--12--12--12--12--12--12--|--12--12--12--12-----------|
--10--10--10--10--10--10--10--10--|--10--10--10--10-----------|
----------------------------------|---------------------------|


C5G#5F5G5
----------------------------------|----------------------------------|
----------------------------------|----------------------------------|
------------------13--13--13--13--|--10--10--10--10--12--12--12--12--|
--10--10--10--10--13--13--13--13--|--10--10--10--10--12--12--12--12--|
--10--10--10--10--11--11--11--11--|---8---8---8---8--10--10--10--10--|
---8---8---8---8------------------|----------------------------------|


----------------------------------|----------------------------------|
----------------------------------|----------------------------------|
------------------13--13--13--13--|--10--10--10--10--12--12--12--12--|
--10--10--10--10--13--13--13--13--|--10--10--10--10--12--12--12--12--|
--10--10--10--10--11--11--11--11--|---8---8---8---8--10--10--10--10--|
---8---8---8---8------------------|----------------------------------|


----------------------------------|----------------------------------|
----------------------------------|----------------------------------|
------------------13--13--13--13--|--10--10--10--10--12--12--12--12--|
--10--10--10--10--13--13--13--13--|--10--10--10--10--12--12--12--12--|
--10--10--10--10--11--11--11--11--|---8---8---8---8--10--10--10--10--|
---8---8---8---8------------------|----------------------------------|


----------------------------------|----------------------------------|
----------------------------------|----------------------------------|
------------------13--13--13--13--|--10--10--10--10--12--12--12--12--|
--10--10--10--10--13--13--13--13--|--10--10--10--10--12--12--12--12--|
--10--10--10--10--11--11--11--11--|---8---8---8---8--10--10--10--10--|
---8---8---8---8------------------|----------------------------------|


----------------------------------|----------------------------------|
----------------------------------|----------------------------------|
--13--13--13--13--13--13--13--13--|--12--12--12--12--12--12--12--12--|
--13--13--13--13--13--13--13--13--|--12--12--12--12--12--12--12--12--|
--11--11--11--11--11--11--11--11--|--10--10--10--10--10--10--10--10--|
----------------------------------|----------------------------------|


----------------------------------|----------------------------------|
----------------------------------|----------------------------------|
--13--13--13--13--13--13--13--13--|--12--12--12--12--12--12--12--12--|
--13--13--13--13--13--13--13--13--|--12--12--12--12--12--12--12--12--|
--11--11--11--11--11--11--11--11--|--10--10--10--10--10--10--10--10--|
----------------------------------|----------------------------------|


|---------3---------|
--------------------------------|----------------------------------|
--------------------------------|----------------------------------|
--12--------12--------12--------|------------------13--13--13--13--|
--12--------12--------12--------|--10--10--10--10--13--13--13--13--|
--10--------10--------10--------|--10--10--10--10--11--11--11--11--|
--------------------------------|---8---8---8---8------------------|


----------------------------------|----------------------------------|
----------------------------------|----------------------------------|
--10--10--10--10--12--12--12--12--|------------------13--13--13--13--|
--10--10--10--10--12--12--12--12--|--10--10--10--10--13--13--13--13--|
---8---8---8---8--10--10--10--10--|--10--10--10--10--11--11--11--11--|
----------------------------------|---8---8---8---8------------------|


----------------------------------|----------------------------------|
----------------------------------|----------------------------------|
--10--10--10--10--12--12--12--12--|------------------13--13--13--13--|
--10--10--10--10--12--12--12--12--|--10--10--10--10--13--13--13--13--|
---8---8---8---8--10--10--10--10--|--10--10--10--10--11--11--11--11--|
----------------------------------|---8---8---8---8------------------|


----------------------------------|----------------------------------|
----------------------------------|----------------------------------|
--10--10--10--10--12--12--12--12--|------------------13--13--13--13--|
--10--10--10--10--12--12--12--12--|--10--10--10--10--13--13--13--13--|
---8---8---8---8--10--10--10--10--|--10--10--10--10--11--11--11--11--|
----------------------------------|---8---8---8---8------------------|

----------------------------------|--------------------|--------------------|
----------------------------------|--------------------|--------------------|
--10--10--10--10--12--12--12--12--|--13----------------|--12----------------|
--10--10--10--10--12--12--12--12--|--13----------------|--12----------------|
---8---8---8---8--10--10--10--10--|--11----------------|--10----------------|
----------------------------------|--------------------|--------------------|


--------------------|--------------------|--------------------|
--------------------|--------------------|--------------------|
--13----------------|--12----------------|--12----------------|
--13----------------|--12----------------|--12----------------|
--11----------------|--10----------------|--10----------------|
--------------------|--------------------|--------------------|


----------------------|-----|-----|-----|-----|
----------------------|-----|-----|-----|-----|
----------------------|-----|-----|-----|-----|
--11------------------|-----|-----|-----|-----|
--11------------------|-----|-----|-----|-----|
---9------------------|-----|-----|-----|-----|


PMPMPMPMPMPMPMPMPMPMPMPMPMPMPMPM
----------------------------------|----------------------------------|
----------------------------------|----------------------------------|
------------------13--13--13--13--|--10--10--10--10--12--12--12--12--|
--10--10--10--10--13--13--13--13--|--10--10--10--10--12--12--12--12--|
--10--10--10--10--11--11--11--11--|---8---8---8---8--10--10--10--10--|
---8---8---8---8------------------|----------------------------------|


PMPMPMPMPMPMPMPMPMPMPMPMPMPMPMPM
----------------------------------|----------------------------------|
----------------------------------|----------------------------------|
------------------13--13--13--13--|--10--10--10--10--12--12--12--12--|
--10--10--10--10--13--13--13--13--|--10--10--10--10--12--12--12--12--|
--10--10--10--10--11--11--11--11--|---8---8---8---8--10--10--10--10--|
---8---8---8---8------------------|----------------------------------|


----------------------------------|----------------------------------|
----------------------------------|----------------------------------|
--13--13--13--13--13--13--13--13--|--12--12--12--12--12--12--12--12--|
--13--13--13--13--13--13--13--13--|--12--12--12--12--12--12--12--12--|
--11--11--11--11--11--11--11--11--|--10--10--10--10--10--10--10--10--|
----------------------------------|----------------------------------|


----------------------------------|----------------------------------|
----------------------------------|----------------------------------|
--13--13--13--13--13--13--13--13--|--12--12--12--12--12--12--12--12--|
--13--13--13--13--13--13--13--13--|--12--12--12--12--12--12--12--12--|
--11--11--11--11--11--11--11--11--|--10--10--10--10--10--10--10--10--|
----------------------------------|----------------------------------|


C5G#5
---------------------------|----------------------------------|
---------------------------|----------------------------------|
--12--12--12--12-----------|------------------13--13--13--13--|
--12--12--12--12-----------|--10--10--10--10--13--13--13--13--|
--10--10--10--10-----------|--10--10--10--10--11--11--11--11--|
---------------------------|---8---8---8---8------------------|


F5G5
----------------------------------|----------------------------------|
----------------------------------|----------------------------------|
--10--10--10--10--12--12--12--12--|------------------13--13--13--13--|
--10--10--10--10--12--12--12--12--|--10--10--10--10--13--13--13--13--|
---8---8---8---8--10--10--10--10--|--10--10--10--10--11--11--11--11--|
----------------------------------|---8---8---8---8------------------|


----------------------------------|----------------------------------|
----------------------------------|----------------------------------|
--10--10--10--10--12--12--12--12--|------------------13--13--13--13--|
--10--10--10--10--12--12--12--12--|--10--10--10--10--13--13--13--13--|
---8---8---8---8--10--10--10--10--|--10--10--10--10--11--11--11--11--|
----------------------------------|---8---8---8---8------------------|


----------------------------------|----------------------------------|
----------------------------------|----------------------------------|
--10--10--10--10--12--12--12--12--|------------------13--13--13--13--|
--10--10--10--10--12--12--12--12--|--10--10--10--10--13--13--13--13--|
---8---8---8---8--10--10--10--10--|--10--10--10--10--11--11--11--11--|
----------------------------------|---8---8---8---8------------------|


C5G#5
----------------------------------|----------------------------------|
----------------------------------|----------------------------------|
--10--10--10--10--12--12--12--12--|------------------13--13--13--13--|
--10--10--10--10--12--12--12--12--|--10--10--10--10--13--13--13--13--|
---8---8---8---8--10--10--10--10--|--10--10--10--10--11--11--11--11--|
----------------------------------|---8---8---8---8------------------|


F5G5
----------------------------------|----------------------------------|
----------------------------------|----------------------------------|
--10--10--10--10--12--12--12--12--|------------------13--13--13--13--|
--10--10--10--10--12--12--12--12--|--10--10--10--10--13--13--13--13--|
---8---8---8---8--10--10--10--10--|--10--10--10--10--11--11--11--11--|
----------------------------------|---8---8---8---8------------------|


----------------------------------|----------------------------------|
----------------------------------|----------------------------------|
--10--10--10--10--12--12--12--12--|------------------13--13--13--13--|
--10--10--10--10--12--12--12--12--|--10--10--10--10--13--13--13--13--|
---8---8---8---8--10--10--10--10--|--10--10--10--10--11--11--11--11--|
----------------------------------|---8---8---8---8------------------|


----------------------------------|----------------------------------|
----------------------------------|----------------------------------|
--10--10--10--10--12--12--12--12--|------------------13--13--13--13--|
--10--10--10--10--12--12--12--12--|--10--10--10--10--13--13--13--13--|
---8---8---8---8--10--10--10--10--|--10--10--10--10--11--11--11--11--|
----------------------------------|---8---8---8---8------------------|


C5G#5
----------------------------------|----------------------------------|
----------------------------------|----------------------------------|
--10--10--10--10--12--12--12--12--|------------------13--13--13--13--|
--10--10--10--10--12--12--12--12--|--10--10--10--10--13--13--13--13--|
---8---8---8---8--10--10--10--10--|--10--10--10--10--11--11--11--11--|
----------------------------------|---8---8---8---8------------------|


F5G5
----------------------------------|----------------------------------|
----------------------------------|----------------------------------|
--10--10--10--10--12--12--12--12--|------------------13--13--13--13--|
--10--10--10--10--12--12--12--12--|--10--10--10--10--13--13--13--13--|
---8---8---8---8--10--10--10--10--|--10--10--10--10--11--11--11--11--|
----------------------------------|---8---8---8---8------------------|


----------------------------------|----------------------------------|
----------------------------------|----------------------------------|
--10--10--10--10--12--12--12--12--|------------------13--13--13--13--|
--10--10--10--10--12--12--12--12--|--10--10--10--10--13--13--13--13--|
---8---8---8---8--10--10--10--10--|--10--10--10--10--11--11--11--11--|
----------------------------------|---8---8---8---8------------------|


----------------------------------|----------------------------------|
----------------------------------|----------------------------------|
--10--10--10--10--12--12--12--12--|------------------13--13--13--13--|
--10--10--10--10--12--12--12--12--|--10--10--10--10--13--13--13--13--|
---8---8---8---8--10--10--10--10--|--10--10--10--10--11--11--11--11--|
----------------------------------|---8---8---8---8------------------|


C5G#5
----------------------------------|----------------------------------|
----------------------------------|----------------------------------|
--10--10--10--10--12--12--12--12--|------------------13--13--13--13--|
--10--10--10--10--12--12--12--12--|--10--10--10--10--13--13--13--13--|
---8---8---8---8--10--10--10--10--|--10--10--10--10--11--11--11--11--|
----------------------------------|---8---8---8---8------------------|


F5G5
----------------------------------|----------------------------------|
----------------------------------|----------------------------------|
--10--10--10--10--12--12--12--12--|------------------13--13--13--13--|
--10--10--10--10--12--12--12--12--|--10--10--10--10--13--13--13--13--|
---8---8---8---8--10--10--10--10--|--10--10--10--10--11--11--11--11--|
----------------------------------|---8---8---8---8------------------|


----------------------------------|----------------------------------|
----------------------------------|----------------------------------|
--10--10--10--10--12--12--12--12--|------------------13--13--13--13--|
--10--10--10--10--12--12--12--12--|--10--10--10--10--13--13--13--13--|
---8---8---8---8--10--10--10--10--|--10--10--10--10--11--11--11--11--|
----------------------------------|---8---8---8---8------------------|


----------------------------------|----------------------------------|
----------------------------------|----------------------------------|
--10--10--10--10--12--12--12--12--|------------------13--13--13--13--|
--10--10--10--10--12--12--12--12--|--10--10--10--10--13--13--13--13--|
---8---8---8---8--10--10--10--10--|--10--10--10--10--11--11--11--11--|
----------------------------------|---8---8---8---8------------------|


----------------------------------|------------------------|---------------||
----------------------------------|------------------------|---------------||
--10--10--10--10--12--12--12--12--|------------------------|---------------||
--10--10--10--10--12--12--12--12--|--13--12--10------------|---------------||
---8---8---8---8--1

Tabl par P'tit Kepon

Haut de page
retour